* Startseite     * Archiv     * Gästebuch     * Kontakt     * Abonnieren



* mehr
     40 gründe warum männer scheiße im bett sin
     EU-Richtlinie
     Was für die Pija
     Luftverkehr
     Die 73 Emoregeln
     TABS
     mehr BILDAZE
     BILDAZE
     Maxis Lüblingsband
     pädrig geb. feier!!
     MiKKls fävorit Bändse
     Mikki's Klassä
     Säm's Klasse
     intafui avec le mikkääl
     Päddrich's Mätälegge
     Ein Rüssel (nicht cosmos!)
     Cosmo klärt Mordfälle auf
     Cosmo erzählt euch Phalluswitze
     Cosmo verpasst euch nen Trip
     Cosmo plaudert über trips von andern Leuten
     Cosmo schlemmt sich durch den Kannibalismus
     Cosmo rüsselt weiter
     Cosmo rüsselt sich durchs Necronomicon
     Cosmo erklärt Gesetze
     Cosmo entziffert Clockwork Orange
     Cosmo erzählt Chuck-Norris-Witze
     Whiskey
     Whiskey Rebellion
     Tschernobyl

* Links
     WAHRE WERTE II
     WAHRE WERTE
     INA !!!
     PÄDDRIG's MÄTLEGGE
     KLOPFER
     Schmaeliches Forum
     ATREYU
     Q.O.T.S.A.
     MALT UNS TAUSEND KLEINE COSMOS
     COSMO ZEIGT EUCH WIE'S GEHT
     APPD
     KUMMERMASKE
     COSMO AND FRIENDS
     MARK BENECKE
     HATEBREED
     36 CRAZY FISTS
     THE DRESDEN DOLLS
     ROTTEN COTTON
     SMOKEBLOW
     GOOD WITCH OF THE SOUTH
     DRITTE WAHL
     INTERESSANT
     LOIKAEMIE
     BETONTOD
     STIMPACK








Hier sin also die tabs zu den songs die man sich bei den lieblings bänzen so reinziehn kann .viel spass beim nachspielen .

m'kay ihr emos des is von From First To Last die von voll ins schwuchtelmilieu abgedriftet und ich mag se nimma besonders aber zu spilen isses ziemlich toll .der song heißt MINUET und is akustisch ich hab kein bock den upzuloaden aber wers spieln will findet überall genügend quellen um den rythmus raus zu hören
see ya
e-------------------|-----------------|-----------------|----------------|-
B-------------------|-----------------|-----------------|----------------|-
G---2----2-----2--|-2------2-----2|-0-----0------0|-----5-----2h3|-
D-----3------3-----|---3------3----|---3-----3------|---2-----2-----|-x2
A-5-----5------5----|-----2------2----|-----1-----1-----|-3-----3---|
E-------------------|-----------------|-----------------|----------------|-

e----------------|---------------|---------------|-----------------|-
B----------------|---------------|---------------|-----------------|-
G-------2-----2--|------3-----3--|------5-----5--|------3--2--0----|-
D-----3-----3----|----2-----2----|----3-----3----|----2---------3--|-x1
A---5-----5------|--3-----3------|--1-----1------|--0--------------|-
E----------------|---------------|---------------|-----------------|-

e----------------|---------------|---------------|-----------------|-
B----------------|---------------|---------------|------------3h5--|-
G-------2-----2--|------3-----3--|------5-----5--|------3--2-------|-
D-----3-----3----|----2-----2----|----3-----3----|----2------------|-x1
A---5-----5------|--3-----3------|--1-----1------|--0--------------|-
E----------------|---------------|---------------|-----------------|-


e---------8-----|-------10-8----|-------6-------|--------------|-
B-------6---6---|-----6------6--|-----6---6-----|-----8-----6--|-
G-----7-------7-|---7-----------|----7-------7--|----6-----7---|-
D---0-----------|--0------------|--8------------|--7-----5-----|-x2
A---------------|---------------|---------------|--------------|-
E---------------|---------------|---------------|--------------|-


e---------1-----|--------0------|---------------|---------------|-
B---------------|---------------|--------5------|------0-----0--|-
G-------2--2----|------0---0----|------4---4----|----2-----2----|-
D---3-3------3--|--2-2-------2--|--5-5-------5--|--3-----3------|-x1
A---------------|---------------|---------------|---------------|-
E---------------|---------------|---------------|---------------|-

e---------------|---------------|---------------|------1-----0--|-
B---------------|---------------|---------------|---------------|-
G--------2------|-------7-------|-------9-------|----2-----0----|-
D------3---3----|-----5---5-----|-----7---7-----|--3-----2------|-x1
A--1-1-------1--|--3-3-------3--|--5-5-------5--|---------------|-
E---------------|---------------|---------------|---------------|-


e----------------|---------------|---------------|------1-----0--|--1--|-
B----------------|---------------|---------------|---------------|--1--|-
G---------2------|--------7------|--------9------|----2-----0----|--3--|-
D-------3---3----|------5---5----|------7---7----|--3-----2------|--3--|-x1
A---1-1-------1--|--3-3-------3--|--5-5-------5--|---------------|--1--|-
E----------------------------------------------------------------|-----|-



Hi MIkkl coole Secction, euer Max

tuned eure gitarren halben ton nach unten.

hab ich selber getabbed also fragt bitte vorher wenn ihr es publik machen wollt, dangge


Speed Lick von Alexi Laiho:

-------------------------12-15/19-15-------------------------15--19
---------------------12-----------------17------------------17---------
-----------------12------------------------16------------16-----------
-------------14-------------------------------17-----17---------------
---------14---------------------------------------19-------------------
-12-15-----------------------------------------------------------------


-15-------------15-19-)--19* 21----21------(--------------------------
-----17-----17---------)-------------/------------(--------------------------
---------16-------------)--------------/-----------(--------------------------
-------------------------)---------------/----------(--------------------------
-------------------------)--------------------------(--------------------------
-------------------------)--------------------------(--------------------------


ok ihr backpfeifen, das war alles, doch den Teil in den Klammern erkläre ich euch nochmal ist ein bisschen komplizierter:
euer zeigefinger mittelfinger und ringfinger sind auf
der hohen E saite positioniert in (15 17 und 19, nur 19 wird angeschlagen, aber durch ein Tabing auf dem 21 Bund. Während ihr Tabt zieht ihr die 3 finger bis in die Mitte eurer Gitarre, und macht nochmal ein Tab auf hohen E Saite und rutsch am ende einfach nach oben weg und fertig. (das heißt bei dem teil in klammern braucht ihr kein Plektron mehr sondern nur einen würdigen Finger .... also zwei mal einfach auf den bund schlagen mit dem finger ich benutze den zeigefinger und fertig.

Bei dem Bend werden 3 finger benutzt obwohl nur 1 klingt, aber das wird dafür gemacht, damit man die saite höher ziehen kann.

Das ganze wird in 3 kompletten Sekunden gespielt, ist also ziemlich heftig.

Viel Spaß euer maxi







hier sin die tabs für White Wedding von den Murderdolls
die andern kommen noch
E}---------------------------
B}---------------------------
G}---------------------------
D}-4-------4-------4------4--
A}-2-------2-------2------2--
E}---------------------------

Intro lead

E}2-----------2--------------2-----------2-----5----4------
B}--3-------3---3--5----3------3-------3---3-------------0-
G}----4---4----------------------4---4---------------------
D}------4--------------------------4-----------------------
A}---------------------------------------------------------
E}---------------------------------------------------------

Chorus

E}-------------------------------------------
B}-------------------------------------------
G}-2---------4-4-4-4-4-4-4-4-4-4-4-4-4-4-4-4-
D}-2----2----4-4-4-4-4-4-4-4-4-4-4-4-4-4-4-4-
A}-0----2----2-2-2-2-2-2-2-2-2-2-2-2-2-2-2-2-
E}------0------------------------------------

E}-------------------------------------------
B}-------------------------------------------
G}-2----2----4-4-4-4-4-4-4-4-4-4-4-4-4-4-4-4-
D}-2----0----4-4-4-4-4-4-4-4-4-4-4-4-4-4-4-4-
A}-0---------2-2-2-2-2-2-2-2-2-2-2-2-2-2-2-2-
E}-------------------------------------------

E}-------------------------------------------
B}-------------------------------------------
G}-2---------4-4-4-4-4-4-4-4-4-4-4-4-4-4-4-4-
D}-2----2----4-4-4-4-4-4-4-4-4-4-4-4-4-4-4-4-
A}-0----2----2-2-2-2-2-2-2-2-2-2-2-2-2-2-2-2-
E}------0------------------------------------

Verse

E}-----------------------------------------------------------------
B}-----------------------------------------------------------------
G}-4-4-4-4-4-4-4-4-4-4-4-4-4-4-4-4-2-2-2-2-2-2-2-2-----------------
D}-4-4-4-4-4-4-4-4-4-4-4-4-4-4-4-4-2-2-2-2-2-2-2-2-2-2-2-2-2-2-2-2-
A}-2-2-2-2-2-2-2-2-2-2-2-2-2-2-2-2-0-0-0-0-0-0-0-0-2-2-2-2-2-2-2-2-
E}-------------------------------------------------0-0-0-0-0-0-0-0-

E}-----------------------------------------------------------------
B}-----------------------------------------------------------------
G}-4-4-4-4-4-4-4-4-4-4-4-4-4-4-4-4-2-2-2-2-2-2-2-2-----------------
D}-4-4-4-4-4-4-4-4-4-4-4-4-4-4-4-4-2-2-2-2-2-2-2-2-2-2-2-2-2-2-2-2-
A}-2-2-2-2-2-2-2-2-2-2-2-2-2-2-2-2-0-0-0-0-0-0-0-0-2-2-2-2-2-2-2-2-
E}-------------------------------------------------0-0-0-0-0-0-0-0-

E}-----------------------------------------------------------------
B}-----------------------------------------------------------------
G}-4-4-4-4-4-4-4-4-4-4-4-4-4-4-4-4-2-2-2-2-2-2-2-2-2-2-2-2-2-2-2-2-
D}-4-4-4-4-4-4-4-4-4-4-4-4-4-4-4-4-2-2-2-2-2-2-2-2-2-2-2-2-2-2-2-2-
A}-2-2-2-2-2-2-2-2-2-2-2-2-2-2-2-2-0-0-0-0-0-0-0-0-0-0-0-0-0-0-0-0-
E}-----------------------------------------------------------------

E}---------------------------------
B}---------------------------------
G}-4-4-4-4-4-4-4-4-4-4-4-4-4-4-4-4-
D}-4-4-4-4-4-4-4-4-4-4-4-4-4-4-4-4-
A}-2-2-2-2-2-2-2-2-2-2-2-2-2-2-2-2-
E}---------------------------------


Chorus

E}-------------------------------------------
B}-------------------------------------------
G}-2---------4-4-4-4-4-4-4-4-4-4-4-4-4-4-4-4-
D}-2----2----4-4-4-4-4-4-4-4-4-4-4-4-4-4-4-4-
A}-0----2----2-2-2-2-2-2-2-2-2-2-2-2-2-2-2-2-
E}------0------------------------------------

E}-------------------------------------------
B}-------------------------------------------
G}-2----2----4-4-4-4-4-4-4-4-4-4-4-4-4-4-4-4-
D}-2----0----4-4-4-4-4-4-4-4-4-4-4-4-4-4-4-4-
A}-0---------2-2-2-2-2-2-2-2-2-2-2-2-2-2-2-2-
E}-------------------------------------------

E}-------------------------------------------
B}-------------------------------------------
G}-2---------4-4-4-4-4-4-4-4-4-4-4-4-4-4-4-4-
D}-2----2----4-4-4-4-4-4-4-4-4-4-4-4-4-4-4-4-
A}-0----2----2-2-2-2-2-2-2-2-2-2-2-2-2-2-2-2-
E}------0------------------------------------

lead

E}2-----------2--------------2-----------2-----5----4------
B}--3-------3---3--5----3------3-------3---3-------------0-
G}----4---4----------------------4---4---------------------
D}------4--------------------------4-----------------------
A}---------------------------------------------------------
E}---------------------------------------------------------

E}2-----------2---2-------------2---2-----------2---5---4-----
B}--3-------3---3----3--------3---3---3-------3---3---------0-
G}----4---4-------------4---4-----------4---4-----------------
D}------4-----------------4---------------4-------------------
A}------------------------------------------------------------
E}------------------------------------------------------------

Breakdown

E}-------------------------------------------
B}-------------------------------------------
G}-2---------4-4-4-4-4-4-4-4-4-4-4-4-4-4-4-4-
D}-2----2----4-4-4-4-4-4-4-4-4-4-4-4-4-4-4-4-
A}-0----2----2-2-2-2-2-2-2-2-2-2-2-2-2-2-2-2-
E}------0------------------------------------

E}---------------------------------
B}---------------------------------
G}-4-----4-----4-----4-----4-------
D}-4-----4-----4-----4-----4-------
A}-2-----2-----2-----2-----2-------
E}---------------------------------


Chorus

E}-------------------------------------------
B}-------------------------------------------
G}-2---------4-4-4-4-4-4-4-4-4-4-4-4-4-4-4-4-
D}-2----2----4-4-4-4-4-4-4-4-4-4-4-4-4-4-4-4-
A}-0----2----2-2-2-2-2-2-2-2-2-2-2-2-2-2-2-2-
E}------0------------------------------------

E}-------------------------------------------
B}-------------------------------------------
G}-2----2----4-4-4-4-4-4-4-4-4-4-4-4-4-4-4-4-
D}-2----0----4-4-4-4-4-4-4-4-4-4-4-4-4-4-4-4-
A}-0---------2-2-2-2-2-2-2-2-2-2-2-2-2-2-2-2-
E}-------------------------------------------

E}-------------------------------------------
B}-------------------------------------------
G}-2---------4-4-4-4-4-4-4-4-4-4-4-4-4-4-4-4-
D}-2----2----4-4-4-4-4-4-4-4-4-4-4-4-4-4-4-4-
A}-0----2----2-2-2-2-2-2-2-2-2-2-2-2-2-2-2-2-
E}------0------------------------------------

E}-------------------------------------------
B}-------------------------------------------
G}-2----2----4-4-4-4-4-4-4-4-4-4-4-4-4-4-4-4-
D}-2----0----4-4-4-4-4-4-4-4-4-4-4-4-4-4-4-4-
A}-0---------2-2-2-2-2-2-2-2-2-2-2-2-2-2-2-2-
E}-------------------------------------------

E}-------------------------------------------
B}-------------------------------------------
G}-2---------4-4-4-4-4-4-4-4-4-4-4-4-4-4-4-4-
D}-2----2----4-4-4-4-4-4-4-4-4-4-4-4-4-4-4-4-
A}-0----2----2-2-2-2-2-2-2-2-2-2-2-2-2-2-2-2-
E}------0------------------------------------

Ending

Palm mutexxxxxxxxxxxxxxxxxxxxxxxxxxxxxxxxxx
E}-------------------------------------------
B}-------------------------------------------
G}--4-4-4-4-4-4-4-4-4-4-4-4-4-4-4-4----ECT---
D}--4-4-4-4-4-4-4-4-4-4-4-4-4-4-4-4----------
A}--2-2-2-2-2-2-2-2-2-2-2-2-2-2-2-2----------
E}-------------------------------------------

hier die tabs für "Inhale" von Stone Sour die kommen übrigens bald nach münchen ins backstage

Intro/Chous
C#|----------
Ab|----------
E |----------
B |0-7-6-2--3
F#|----------
B |----------

Riff 2
C#|---------
Ab|---------
E |---------
B |0-7-6-2-3
F#|0-7-6-2-3
B |0-7-6-2-3

Verse
C#|-------------------------------------------
Ab|-------------------------------------------
E |7--7-7-7-3-3-3----7----7-7-7-3-3-3-5-5-7---
B |7--7-7--------7-7-7----7-7-7-----------7-(5)
F#|5--5-5------------5----5-5-5-----------5-(5) () Only Second Time
B |-----------------------------------------(5)
P.M.

END RIFF
C#|----------------------
Ab|----------------------
E |----------------------
B |9-9-9-9--11-11-11-11-5
F#|9-9-9-9--11-11-11-11-5
B |9-9-9-9--11-11-11-11-5


SONG ORDER
INTRO/CHORUS X 6
RIFF 2 X 4
VERSE X 2
INTRO/CHORUS X 8
VERSE X 2
INTRO/CHORUS X 8
END RIFF X 6
INTRO/CHORUS X 16
RIFF 2 X 4



Verantwortlich für die Inhalte ist der Autor. Dein kostenloses Blog bei myblog.de! Datenschutzerklärung
Werbung